Track Title:               Life's A Long Song

Album Title:               Original Masters (hits)
Prime Artist:              Jethro Tull
Producer:                  Ian Anderson
Written by:                Ian Anderson
Lyrics:
        When you're fallen awake              And you
          And you hear your voice               croak
|-2---2-2-2-2-|---------0---|-------------|-----------0h2-||
|-3---3-3-3-3-|---------0---|-----1-1---0-|-3---2-2-0-2---||
|-2---2-2-2-2-|---0-2-0---0-|-----0-0---0-|-2---2-2-2-3---||.
|-0-----------|-4-----------|---4---------|-----------0---||.
|-------------|-------------|-3-----------|---------------||
|-------------|-------------|-------------|---------------||

  take          Stock of the new day
  as you choke  On what you need to
2. time, replace bar 24 with:
|-------------|
|-3---2-2---0-|
|-2---2-2---0-|
|-------------|
|-------------|
|-------------|
  say
|-1---1-1-1-1-|-----1-1-1-1-|-0---0-0-----|-----0-0-0-0-|
|-1---1-1-1-1-|-----1-1-1-1-|-1---1-1-----|-----1-1-1-1-|
|-2---2-2-2-2-|-0-2-2-2-2-2-|-0---0-0-----|-----0-0-0-0-|
|-3---3-3-3-3-|-----3-3-3-3-|-2---2-2-0h2-|---2---------|
|-------------|-------------|-3---3-3-----|-3-----------|
|-------------|-------------|-------------|-------------|
       Well, don't you fret, don't you fear       I will
|-3---3-3-----|-----3-3-3-3-|-0-0-0-0-0-0-|-0-0-0-0-0-0-|
|-3---3-3-----|-----3-3-3-3-|-3-3-3-3-3-3-|-2-2-2-0-0-0-|
|-0---0-0-----|-----0-0-0-0-|-2-2-2-2-2-2-|-2-2-2-2-2-2-|
|-0---0-0-----|-----0-0-0-0-|-2-2-2-2-2-2-|-2-2-2-2-2-2-|
|-2---2-2-0-2-|---2-2-2-2-2-|-0-0-0-0-0-0-|-------------|
|-------------|-3-----------|-------------|-------------|
  give you good               cheer
Repeat 3 times:
|-2---2-2-2-2-|-------2-2-2-|-------0-0-0-|-----0-0-0-0-|
|-3---3-3-3-3-|-------3-3-3-|-------1-1-1-|-----1-1-1-1-|
|-2---2-2-2-2-|-------2-2-2-|-------0-0-0-|-----0-0-0-0-|
|-0---0-0-0-0-|-0-4---------|-0-2---------|-----2-2-2-2-|
|-------------|-------------|-------------|-0-3---------|
|-------------|-------------|---------------------------|
1.Life's a long song
2.Life's a long song
3.Life's a long song                              If you

|-3---3-3-----|-----3-3-3-3-|-0-0-0-0-0-0-|-0-0-0-0-0-0-|
|-3---3-3-----|-----3-3-3-3-|-3-3-3-3-3-3-|-2-2-2-0-0-0-|
|-0---0-0-----|-----0-0-0-0-|-2-2-2-2-2-2-|-2-2-2-2-2-2-|
|-0---0-0-----|-----0-0-0-0-|-2-2-2-2-2-2-|-2-2-2-2-2-2-|
|-2---2-2-0-2-|---2-2-2-2-2-|-0-0-0-0-0-0-|-------------|
|-------------|-3-----------|-------------|-------------|

  wait then your plate I will fill
Additional verses:
------------------
As the verses unfold and your soul suffers the long day,
And the twelve o'clock gloom spins the room, you struggle on your way.
Well don't you sigh, don't you cry,
Lick the dust from your eye.
Life's a long song.
Life's a long song.
Life's a long song.
We will meet in the sweet light of dawn.
As the Baker Street train spills your pain all over your new dress,
And the symphony sounds underground but you under du - ress.
Well don't you squeal as the heel
Grinds you under the wheels.
Life's a long song.
Life's a long song.
Life's a long song.
But the tune ends too soon for us all
But the tune ends too soon for us all
Ending:
-------
|-0-0-0-0-0-0-|---2---------|
|-3-3-2-2-0-0-|-0-3---------|
|-2-2-2-2-2-2-|-0-2---------|
|-2-2-2-2-2-2-|-0-0---------|
|-0-0-0-0-0-0-|-------------|
|-------------|-------------|
************************************************************************
In the second verse there is another guitar playing:
                     |-5---3p2p0----------------
                     |-----------3-----3p1p0----
|-----------------------2-- |-------------------------- |-------------------------- |-------------------------- ..suffers the long day |-5---3p2p0---------------- |-----------3-----3p1p0--1- |-------------------------- |-------------------------- |-------------------------- |-------------------------- ..struggle on your way
http://www.thepeaches.com/music/