Track Title:               Dream Police

Album Title:               Greatest Hits
Prime Artist:              Cheap Trick
Engineer:                  Gary Ladinsky
Producer:                  Tom Werman

Written by:                Rick Nielsen
From the Album:            Dream Police  1979 (A)


Lyrics:
(itty-bitty 2-beat drum fill)
  E        B  A      E        B  A
  q. e^h   q. q. q   q. e^h   q. q. q
E--------|---------|--------|---------
B--------|---------|--------|---------
G--------|-4--2--2-|--------|-4--2--2-
D-2--2---|-4--2--2-|-2--2---|-4--2--2-
A-2--2---|-2--0--0-|-2--2---|-2--0--0-
E-0--0---|---------|-0--0---|---------
  E                            B  A
   q. e^h                       q. q. q
E----------------------------|---------
B----------------------------|---------
G----------------------------|-4--2--2-
D-2--2-----------------------|-4--2--2-
A-2--2-----------------------|-2--0--0-
E-0--0-----------------------|---------
The dream police, they live inside of my head
  E                            B  A
  q. e^h                       q. q. q
E----------------------------|---------
B----------------------------|---------
G----------------------------|-4--2--2-
D-2--2-----------------------|-4--2--2-
A-2--2-----------------------|-2--0--0-
E-0--0-----------------------|---------
The dream police, they come to me in my bed
  E                            B  A
  q. e^h                       q. q. q
E----------------------------|---------
B----------------------------|---------
G----------------------------|-4--2--2-
D-2--2-----------------------|-4--2--2-
A-2--2-----------------------|-2--0--0-
E-0--0-----------------------|---------
The dream police, they come into my sleep
  E
  e e q e e q   e e q e e q
E-------------|-------------
B-------------|-------------
G-------------|-------------
D-2-2-2-2-2-2-|-2-2-2-2-2-2-
A-2-2-2-2-2-2-|-2-2-2-2-2-2-
E-0-0-0-0-0-0-|-0-0-0-0-0-0-
Oh no
(bass & keyboard play some chords)
You know that talk is cheap and those rumors ain't nice
  E B
  q h.
E-----
B-----
G---4-
D-2-4-
A-2-2-
E-0---
And when I fall asleep, I don't think I'll survive
  E B      E   B
  q h.     q   h.
E--------|-----------------------------------------
B--------|-----------------------------------------
G---4----|-9---------------------------------------
D-2-4----|-9---9-----------------------------------
A-2-2----|-7---9-----------------------------------
E-0------|-0---7-----------------------------------
The night, the night
              E     E     E
              e e e e e e e e         e   e    e  e  e e e e
E-----------------------------|------------------------------
B-----------------------------|------------------------------
G-------------9-----9-----9---|------------------------------
D-------------9-----9-----9---|------------------------------
A-------------7-7-7-7-7-7-7-7-|-------9---7----6--7--7-7-7-7-
E-------------0-0-0-0-0-0-0-0-|-------0---0----0--0--0-0-0-0-
Cause they're waiting for me, they're looking for me
  E                                 E  D    C  G    A
  q.  q.    q^   e    q.  q   q     h  h    h  h    e e e e e e e e
E-12\-12\-12\-|-(12\)-12\-12\-12\-|-7--5--|-3--3--|-----------------
B-12\-12\-12\-|-(12\)-12\-12\-12\-|-9--7--|-5--3--|-----------------
G-------------|-------------------|-9--7--|-5--4--|-2-----2-----2---
D-------------|-------------------|-9--7--|-5--5--|-2-2-2-2-2-2-2-2-
A-------------|-------------------|-7--5--|-3-----|-0-0-0-0-0-0-0-0-
E-------------|-------------------|-------|-------|-----------------
Every single night they're          driving me insane
A Em D C G B e e e e e e e e h h h h q e e e e e e e e e e e e e e E-------------------|-7---5-|-3--3-|-2-------------|----------------- B-------------------|-8---7-|-5--3-|-4-------------|----------------- G-2-----------------|-9---7-|-5--4-|-4-4-4-4-4-4-4-|-4-4-4-4-4-4-4-4- D-2-----------------|-9---7-|-5--5-|-4-4-4-4-4-4-4-|-4-4-4-4-4-4-4-4- A-0-2-2h3-2-0-------|-7---5-|-3----|-2-2-2-2-2-2-2-|-2-2-2-2-2-2-2-2- E-------------3-2-0-|-------|------|---------------|----------------- Those men inside my brain E B A q. e^h q. q. q E----------------------------|--------- B----------------------------|--------- G----------------------------|-4--2--2- D-2--2-----------------------|-4--2--2- A-2--2-----------------------|-2--0--0- E-0--0-----------------------|--------- The dream police, they live inside of my head (live inside of my head) E B A q. e^h q. q. q E----------------------------|--------- B----------------------------|--------- G----------------------------|-4--2--2- D-2--2-----------------------|-4--2--2- A-2--2-----------------------|-2--0--0- E-0--0-----------------------|--------- The dream police, they come to me in my bed (come to me in my bed) E B A q. e^h q. q. q E----------------------------|--------- B----------------------------|--------- G----------------------------|-4--2--2- D-2--2-----------------------|-4--2--2- A-2--2-----------------------|-2--0--0- E-0--0-----------------------|--------- The dream police, they come into my sleep E e e q e e q e e q e e q E-------------|------------- B-------------|------------- G-------------|------------- D-2-2-2-2-2-2-|-2-2-2-2-2-2- A-2-2-2-2-2-2-|-2-2-2-2-2-2- E-0-0-0-0-0-0-|-0-0-0-0-0-0- Oh no (bass & keyboard play some chords) Well I can't tell lies cause they're listening to me E B q h. E----- B----- G---4- D-2-4- A-2-2- E-0--- When I fall asleep, bet they're spying on me E B E B q h. q h. E--------|----------------------------------------- B--------|----------------------------------------- G---4----|-9--------------------------------------- D-2-4----|-9---9----------------------------------- A-2-2----|-7---9----------------------------------- E-0------|-0---7----------------------------------- Tonight, tonight E E E e e e e e e e e e e e e e e e e E-----------------------------|------------------------------ B-----------------------------|------------------------------ G-------------9-----9-----9---|------------------------------ D-------------9-----9-----9---|------------------------------ A-------------7-7-7-7-7-7-7-7-|-------9---7----6--7--7-7-7-7- E-------------0-0-0-0-0-0-0-0-|-------0---0----0--0--0-0-0-0- Cause they're waiting for me, they're looking for me E E D C G A q. q. q^ e q. q q h h h h e e e e e e e e E-12\-12\-12\-|-(12\)-12\-12\-12\-|-7--5--|-3--3--|----------------- B-12\-12\-12\-|-(12\)-12\-12\-12\-|-9--7--|-5--3--|----------------- G-------------|-------------------|-9--7--|-5--4--|-2-----2-----2--- D-------------|-------------------|-9--7--|-5--5--|-2-2-2-2-2-2-2-2- A-------------|-------------------|-7--5--|-3-----|-0-0-0-0-0-0-0-0-
http://www.thepeaches.com/music/